FANDOM


The Battle Of Evermore by Led Zeppelin.



  Intro

E|----0-0-----0-0-|----0-0-----0-0-|----0-0-----0-0-|----0-0-----0-0-|----0-0-----0-0-|

A|--3-------3-----|--3-------3-----|--3-------3-----|--3-------3-----|--3-------3-----|

D|7-------7-------|7-------7-------|7-------7-------|7-------7-------|7-------7-------|

G|----------------|----------------|----------------|----------------|----------------|

 |                                                                                    |

E|----------------|----------------|----------------|----------------|----------------|

A|--3-3-----3-3---|--3-3-----3-3---|--3-3-----3-3---|--3-3-----3-3---|--3-3-----3-3---|

D|7-7-7---7-7-7---|7-7-7---7-7-7---|7-7-7---7-7-7---|7-7-7---7-7-7---|7-7-7---7-7-7---|

G|----------------|----------------|----------------|----------------|----------------|

 |                                                                                    |

E|----------------|----------------|----------------|----------------|----------------|

A|----------------|----------------|----------------|----------------|----------------|

D|----------------|----------------|----------------|----------------|----------------|

G|----------------|----------------|2-2-------------|----------------|1-1-------------|



E|----0-0-----0-0-|----0-0-----0-0-|----0-0-----0-0-|----0-0-----0-0-|----0-0-----0-0-|

A|--3-------3-----|--3-------3-----|--3-------3-----|--3-------3-----|--3-------3-----|

D|7-------7-------|7-------7-------|7-------7-------|7-------7-------|7-------7-------|

G|----------------|----------------|----------------|----------------|----------------|

 |                                                                                    |

E|----------------|----------------|----------------|----------------|----------------|

A|--3-3-----3-3---|--3-3-----3-3---|--3-3-----3-3---|--3-3-----3-3---|--3-3-----3-3---|

D|7-7-7---7-7-7---|7-7-7---7-7-7---|7-7-7---7-7-7---|7-7-7---7-7-7---|7-7-7---7-7-7---|

G|----------------|----------------|----------------|----------------|----------------|

 |                                                                                    |

E|----------------|----------------|----------------|----------------|----------------|

A|----------------|----------------|----------------|----------------|----------------|

D|----------------|----------------|----------------|----------------|----------------|

G|----------------|0-0-------------|----------------|1-1-------------|----------------|



E|----0-0-----0-0-|----0-0-----0-0-|----0-0-----0-0-|----0-0-----0-0-|----0-0-----0-0-|

A|--3-------3-----|--3-------3-----|--3-------3-----|--3-------3-----|--3-------3-----|

D|7-------7-------|7-------7-------|7-------7-------|7-------7-------|7-------7-------|

G|----------------|----------------|----------------|----------------|----------------|

 |                                                                                    |

E|----------------|----------------|----------------|----------------|----------------|

A|--3-3-----3-3---|--3-3-----3-3---|--3-3-----3-3---|--3-3-----3-3---|--3-3-----3-3---|

D|7-7-7---7-7-7---|7-7-7---7-7-7---|7-7-7---7-7-7---|7-7-7---7-7-7---|7-7-7---7-7-7---|

G|----------------|----------------|----------------|----------------|----------------|

 |                                                                                    |

E|----------------|----------------|----------------|----------------|----------------|

A|----------------|----------------|----------------|----------------|----------------|

D|----------------|----------------|----------------|----------------|----------------|

G|2-2-------------|----------------|1-1-------------|----------------|0-0-------------|



E|----0-0-----0-0-|----0-0-----0-0-|----0-0-----0-0-|------------0---|0-0-0-0-0---0---|

A|--3-------3-----|--3-------3-----|--3-------3-----|3-3-3-3---0-2---|3-3-3-3-3-0-2---|

D|7-------7-------|7-------7-------|7-------7-------|----------------|----------------|

G|----------------|----------------|----------------|----------------|----------------|

 |                                                                                    |

E|----------------|----------------|----------------|0-0-0-0---0-0-0-|0-0-0-0---0-0-0-|

A|--3-3-----3-3---|--3-3-----3-3---|--3-3-----3-3---|3-3-3-3---2-2-2-|3-3-3-3---2-2-2-|

D|7-7-7---7-7-7---|7-7-7---7-7-7---|7-7-7---7-7-7---|2-2-2-2---0-0-0-|2-2-2-2---0-0-0-|

G|----------------|----------------|----------------|----------------|----------------|

 |                                                                                    |

E|----------------|----------------|----------------|----------------|----------------|

A|----------------|----------------|----------------|----------------|----------------|

D|----------------|----------------|----------------|----------------|----------------|

G|----------------|0-0-------------|----------------|----------------|----------------|



E|--0-0-0-0---0---|0-0-0-0-0---0---||

A|3-3-3-3-3---2---|3-3-3-3-3-0-2---||

D|----------------|----------------||

G|----------------|----------------||

 |                                 ||

E|0-0-0-0---0-0-0-|0-0-0-0---0-0-0-||

A|3-3-3-3---2-2-2-|3-3-3-3---2-2-2-||

D|2-2-2-2---0-0-0-|2-2-2-2---0-0-0-||

G|----------------|----------------||

 |                                 ||

E|----------------|----------------||

A|----------------|----------------||

D|----------------|----------------||

G|----------------|----------------||



E|2-2---2---0-3-0-|2-2---2---0---0-|2---0-2---0-3---|2-2---2---0---0-|

A|0-----0-----2---|0-----0-----3---|0-----0-----2---|0-0-0-0-----3---|

D|----------------|------------2---|----------------|------------2---|

G|----------------|----------------|----------------|----------------|

 |                                                                   |

E|----------------|----------------|----------------|----------------|

A|0-0-0-0---0-2---|0-0-0-0---------|0-0---0---0-2---|0-0-0-----0-----|

D|----------------|----------5-2-5-|----------------|------2---------|

G|----------------|----------------|----------------|------------5-7-|

  The queen of light took her bow.....



E|2-----2---0-3-0-|2-----2---0---0-|2-----2---0-3-0-|2-----2---0---0-|

A|0-0-0-0-----2---|0-0-0-0-0---3---|0-0-0-0-0---2---|0-0-0-0-0---3---|

D|----------------|------------2---|----------------|------------2---|

G|----------------|----------------|----------------|----------------|

 |                                                                   |

E|----------------|----------------|----------------|----------------|

A|----------------|0-0-0-0---------|0-0---0---0-2---|0-0-0-0-0-------|

D|----------------|----------5-2-5-|----------------|----------5-2-5-|

G|2-2-2-2-0-------|----------------|----------------|----------------|



E|----5-------5---|--3-2-0-2-3-2-0-|----5-------5---|--3-2-0---0-0-0-|

A|----0-------0---|----------------|----0-------0---|--------3---3-3-|

D|----4-------4---|----------------|----4-------4---|----------------|

G|----------------|----------------|----------------|----------------|

 |                                                                   |

E|----------------|----------------|----------------|----------------|

A|----0-0-----0-0-|--0-0-0---0-0-0-|----0-0-----0-0-|--0-0-0---0-0-0-|

D|----------------|----------------|----------------|----------------|

G|----------------|----------------|----------------|----------------|



E|2-----2---0-3-0-|2-----2---0---0-|2-----2---0-3-0-|2-----2---0---0-|

A|0-0-0-0-----2---|0-0-0-0-0---3---|0-0-0-0-0---2---|0-0-0-0-0---3---|

D|----------------|------------2---|----------------|------------2---|

G|----------------|----------------|----------------|----------------|

 |                                                                   |

E|----------------|----------------|----------------|----------------|

A|----------------|0-0-0-0---------|0-0---0---0-2---|0-0-0-0-0-------|

D|----------------|----------5-2-5-|----------------|----------5-2-5-|

G|2-2-2-2-0-------|----------------|----------------|----------------|



E|----5-------5---|--3-2-0-2-3-2-0-|----5-------5---|--3-2-0---0-0-0-|

A|----0-------0---|----------------|----0-------0---|--------3---3-3-|

D|----4-------4---|----------------|----4-------4---|----------------|

G|----------------|----------------|----------------|----------------|

 |                                                                   |

E|----------------|----------------|----------------|----------------|

A|----0-0-----0-0-|--0-0-0---0-0-0-|----0-0-----0-0-|--0-0-0---0-0-0-|

D|----------------|----------------|----------------|----------------|

G|----------------|----------------|----------------|----------------|



E|2-----2---0-3-0-|2-----2---0---0-|2-----2---0-3-0-|2-----2---0---0-|

A|0-0-0-0-----2---|0-0-0-0-0---3---|0-0-0-0-0---2---|0-0-0-0-0---3---|

D|----------------|------------2---|----------------|------------2---|

G|----------------|----------------|----------------|----------------|

 |                                                                   |

E|----------------|----------------|----------------|----------------|

A|----------------|0-0-0-0---------|0-0---0---0-2---|0-0-0-0-0-------|

D|----------------|----------5-2-5-|----------------|----------5-2-5-|

G|2-2-2-2-0-------|----------------|----------------|----------------|



E|0-0-0-0-0-0-0-0-|5-5-5-5---5-5---|0-0-0-0---0-0-0-|0-5-5-5---5-5-0-|

A|3-3-3-3-3-3-3-3-|0-0-0-0---0-0---|3-3-3-3---3-3-3-|3-0-0-0---0-0-3-|

D|5-5-5-5-5-5-5-5-|4-4-4-4---4-4---|5-5-5-5---5-5-5-|5-4-4-4---4-4---|

G|----------------|----------------|----------------|----------------|

 |                                                                   |

E|----------------|----------------|----------------|----------------|

A|----------------|----------------|----------------|----------------|

D|--5-5-5---5-5-5-|--4-4-4---4-4---|--5-5-5---5-5-5-|--4-4-4---4-4---|

G|--5-5-5---5-5-5-|--2-2-2---2-2---|--5-5-5---5-5-5-|--2-2-2---2-2---|

  I hear the horses thunder.....



E|0-3---3---3-3-3-|3-0-0-0---0-0-0-|3-3-3-3-3-3-3-3-|3-0-0-0---0-0-0-||

A|3-2---2---2-2-2-|2-3-3-3---3-3-3-|2-2-2-2-2-2-2-2-|2-3-3-3---3-3-3-||

D|--3---3---3-3-3-|3-2-2-2---2-2-2-|3-3-3-3-3-3-3-3-|3-2-2-2---2-2-2-||

G|----------------|----------------|----------------|----------------||

 |                                                                   ||

E|----------------|----------------|----------------|----------------||

A|----------------|----------------|----------------|----------------||

D|--3-3-3---3-3-3-|5-2-2-2---2-2-2-|--3-3-3---3-3-3-|5-2-2-2---2-2-2-||

G|--0-0-0---0-0-0-|0-0-0-0---0-0-0-|--0-0-0---0-0-0-|0-0-0-0---0-0-0-||



E|2-2---2---0-3-0-|2-2---2---0---0-|2---0-2---0-3---|2-2---2---0---0-|

A|0-----0-----2---|0-----0-----3---|0-----0-----2---|0-0-0-0-----3---|

D|----------------|------------2---|----------------|------------2---|

G|----------------|----------------|----------------|----------------|

 |                                                                   |

E|----------------|----------------|----------------|----------------|

A|0-0-0-0---0-2---|0-0-0-0---------|0-0---0---0-2---|0-0-0-----0-----|

D|----------------|----------5-2-5-|----------------|------2---------|

G|----------------|----------------|----------------|------------5-7-|

  The apples of the valley hold.....



E|2-----2---0-3-0-|2-----2---0---0-|2-----2---0-3-0-|2-----2---0---0-|

A|0-0-0-0-----2---|0-0-0-0-0---3---|0-0-0-0-0---2---|0-0-0-0-0---3---|

D|----------------|------------2---|----------------|------------2---|

G|----------------|----------------|----------------|----------------|

 |                                                                   |

E|----------------|----------------|----------------|----------------|

A|----------------|0-0-0-0---------|0-0---0---0-2---|0-0-0-0-0-------|

D|----------------|----------5-2-5-|----------------|----------5-2-5-|

G|2-2-2-2-0-------|----------------|----------------|----------------|



E|----5-------5---|--3-2-0-2-3-2-0-|----5-------5---|--3-2-0---0-0-0-|

A|----0-------0---|----------------|----0-------0---|--------3---3-3-|

D|----4-------4---|----------------|----4-------4---|----------------|

G|----------------|----------------|----------------|----------------|

 |                                                                   |

E|----------------|----------------|----------------|----------------|

A|----0-0-----0-0-|--0-0-0---0-0-0-|----0-0-----0-0-|--0-0-0---0-0-0-|

D|----------------|----------------|----------------|----------------|

G|----------------|----------------|----------------|----------------|


E|2-2---2---0-3-0-|2-2---2---0---0-|2---0-2---0-3---|2-2---2---0---0-|

A|0-----0-----2---|0-----0-----3---|0-----0-----2---|0-0-0-0-----3---|

D|----------------|------------2---|----------------|------------2---|

G|----------------|----------------|----------------|----------------|

 |                                                                   |

E|----------------|----------------|----------------|----------------|

A|0-0-0-0---0-2---|0-0-0-0---------|0-0---0---0-2---|0-0-0-----0-----|

D|----------------|----------5-2-5-|----------------|------2---------|

G|----------------|----------------|----------------|------------5-7-|

  The apples turn to brown and black.....



E|2-----2---0-3-0-|2-----2---0---0-|2-----2---0-3-0-|2-----2---0---0-|

A|0-0-0-0-----2---|0-0-0-0-0---3---|0-0-0-0-0---2---|0-0-0-0-0---3---|

D|----------------|------------2---|----------------|------------2---|

G|----------------|----------------|----------------|----------------|

 |                                                                   |

E|----------------|----------------|----------------|----------------|

A|----------------|0-0-0-0---------|0-0---0---0-2---|0-0-0-0-0-------|

D|----------------|----------5-2-5-|----------------|----------5-2-5-|

G|2-2-2-2-0-------|----------------|----------------|----------------|



E|----5-------5---|--3-2-0-2-3-2-0-|----5-------5---|--3-2-0---0-0-0-|

A|----0-------0---|----------------|----0-------0---|--------3---3-3-|

D|----4-------4---|----------------|----4-------4---|----------------|

G|----------------|----------------|----------------|----------------|

 |                                                                   |

E|----------------|----------------|----------------|----------------|

A|----0-0-----0-0-|--0-0-0---0-0-0-|----0-0-----0-0-|--0-0-0---0-0-0-|

D|----------------|----------------|----------------|----------------|

G|----------------|----------------|----------------|----------------|


E|2-2---2---0-3-0-|2-2---2---0---0-|2---0-2---0-3---|2-2---2---0---0-|

A|0-----0-----2---|0-----0-----3---|0-----0-----2---|0-0-0-0-----3---|

D|----------------|------------2---|----------------|------------2---|

G|----------------|----------------|----------------|----------------|

 |                                                                   |

E|----------------|----------------|----------------|----------------|

A|0-0-0-0---0-2---|0-0-0-0---------|0-0---0---0-2---|0-0-0-----0-----|

D|----------------|----------5-2-5-|----------------|------2---------|

G|----------------|----------------|----------------|------------5-7-|

  The sky is filled with good and bad.....



E|2-----2---0-3-0-|2-----2---0---0-|2-----2---0-3-0-|2-----2---0---0-|

A|0-0-0-0-----2---|0-0-0-0-0---3---|0-0-0-0-0---2---|0-0-0-0-0---3---|

D|----------------|------------2---|----------------|------------2---|

G|----------------|----------------|----------------|----------------|

 |                                                                   |

E|----------------|----------------|----------------|----------------|

A|----------------|0-0-0-0---------|0-0---0---0-2---|0-0-0-0-0-------|

D|----------------|----------5-2-5-|----------------|----------5-2-5-|

G|2-2-2-2-0-------|----------------|----------------|----------------|



E|----5-------5---|--3-2-0-2-3-2-0-|----5-------5---|--3-2-0---0-0-0-|

A|----0-------0---|----------------|----0-------0---|--------3---3-3-|

D|----4-------4---|----------------|----4-------4---|----------------|

G|----------------|----------------|----------------|----------------|

 |                                                                   |

E|----------------|----------------|----------------|----------------|

A|----0-0-----0-0-|--0-0-0---0-0-0-|----0-0-----0-0-|--0-0-0---0-0-0-|

D|----------------|----------------|----------------|----------------|

G|----------------|----------------|----------------|----------------|



E|2-----2---0-3-0-|2-----2---0---0-|2-----2---0-3-0-|2-----2---0---0-|

A|0-0-0-0-----2---|0-0-0-0-0---3---|0-0-0-0-0---2---|0-0-0-0-0---3---|

D|----------------|------------2---|----------------|------------2---|

G|----------------|----------------|----------------|----------------|

 |                                                                   |

E|----------------|----------------|----------------|----------------|

A|----------------|0-0-0-0---------|0-0---0---0-2---|0-0-0-0-0-------|

D|----------------|----------5-2-5-|----------------|----------5-2-5-|

G|2-2-2-2-0-------|----------------|----------------|----------------|



E|0-0-0-0-0-0-0-0-|5-5-5-5---5-5---|0-0-0-0---0-0-0-|0-5-5-5---5-5-0-|

A|3-3-3-3-3-3-3-3-|0-0-0-0---0-0---|3-3-3-3---3-3-3-|3-0-0-0---0-0-3-|

D|5-5-5-5-5-5-5-5-|4-4-4-4---4-4---|5-5-5-5---5-5-5-|5-4-4-4---4-4---|

G|----------------|----------------|----------------|----------------|

 |                                                                   |

E|----------------|----------------|----------------|----------------|

A|----------------|----------------|----------------|----------------|

D|--5-5-5---5-5-5-|--4-4-4---4-4---|--5-5-5---5-5-5-|--4-4-4---4-4---|

G|--5-5-5---5-5-5-|--2-2-2---2-2---|--5-5-5---5-5-5-|--2-2-2---2-2---|

  Oh well, the night is long.....



E|0-3---3---3-3-3-|3-0-0-0---0-0-0-|3-3-3-3-3-3-3-3-|3-0-0-0---0-0-0-||

A|3-2---2---2-2-2-|2-3-3-3---3-3-3-|2-2-2-2-2-2-2-2-|2-3-3-3---3-3-3-||

D|--3---3---3-3-3-|3-2-2-2---2-2-2-|3-3-3-3-3-3-3-3-|3-2-2-2---2-2-2-||

G|----------------|----------------|----------------|----------------||

 |                                                                   ||

E|----------------|----------------|----------------|----------------||

A|----------------|----------------|----------------|----------------||

D|--3-3-3---3-3-3-|5-2-2-2---2-2-2-|--3-3-3---3-3-3-|5-2-2-2---2-2-2-||

G|--0-0-0---0-0-0-|0-0-0-0---0-0-0-|--0-0-0---0-0-0-|0-0-0-0---0-0-0-||



E|2-----2---0-3-0-|2-----2---0---0-|2-----2---0-3-0-|2-----2---0---0-|

A|0-0-0-0-----2---|0-0-0-0-0---3---|0-0-0-0-0---2---|0-0-0-0-0---3---|

D|----------------|------------2---|----------------|------------2---|

G|----------------|----------------|----------------|----------------|

 |                                                                   |

E|----------------|----------------|----------------|----------------|

A|----------------|0-0-0-0---------|0-0---0---0-2---|0-0-0-0-0-------|

D|----------------|----------5-2-5-|----------------|----------5-2-5-|

G|2-2-2-2-0-------|----------------|----------------|----------------|



E|2-----2---0-3-0-|2-----2---0---0-|2-----2---0-3-0-|2-----2---0---0-|

A|0-0-0-0-----2---|0-0-0-0-0---3---|0-0-0-0-0---2---|0-0-0-0-0---3---|

D|----------------|------------2---|----------------|------------2---|

G|----------------|----------------|----------------|----------------|

 |                                                                   |

E|----------------|----------------|----------------|----------------|

A|----------------|0-0-0-0---------|0-0---0---0-2---|0-0-0-0-0-------|

D|----------------|----------5-2-5-|----------------|----------5-2-5-|

G|2-2-2-2-0-------|----------------|----------------|----------------|



E|----5-------5---|--3-2-0-2-3-2-0-|----5-------5---|--3-2-0---0-0-0-|

A|----0-------0---|----------------|----0-------0---|--------3---3-3-|

D|----4-------4---|----------------|----4-------4---|----------------|

G|----------------|----------------|----------------|----------------|

 |                                                                   |

E|----------------|----------------|----------------|----------------|

A|----0-0-----0-0-|--0-0-0---0-0-0-|----0-0-----0-0-|--0-0-0---0-0-0-|

D|----------------|----------------|----------------|----------------|

G|----------------|----------------|----------------|----------------|



E|2-----2---0-3-0-|2-----2---0---0-|2-----2---0-3-0-|2-----2---0---0-|

A|0-0-0-0-----2---|0-0-0-0-0---3---|0-0-0-0-0---2---|0-0-0-0-0---3---|

D|----------------|------------2---|----------------|------------2---|

G|----------------|----------------|----------------|----------------|

 |                                                                   |

E|----------------|----------------|----------------|----------------|

A|----------------|0-0-0-0---------|0-0---0---0-2---|0-0-0-0-0-------|

D|----------------|----------5-2-5-|----------------|----------5-2-5-|

G|2-2-2-2-0-------|----------------|----------------|----------------|



E|----5-------5---|--3-2-0-2-3-2-0-|----5-------5---|--3-2-0---0-0-0-|

A|----0-------0---|----------------|----0-------0---|--------3---3-3-|

D|----4-------4---|----------------|----4-------4---|----------------|

G|----------------|----------------|----------------|----------------|

 |                                                                   |

E|----------------|----------------|----------------|----------------|

A|----0-0-----0-0-|--0-0-0---0-0-0-|----0-0-----0-0-|--0-0-0---0-0-0-|

D|----------------|----------------|----------------|----------------|

G|----------------|----------------|----------------|----------------|



E|2-----2---0-3-0-|2-----2---0---0-|2-----2---0-3-0-|2-----2---0---0-|

A|0-0-0-0-----2---|0-0-0-0-0---3---|0-0-0-0-0---2---|0-0-0-0-0---3---|

D|----------------|------------2---|----------------|------------2---|

G|----------------|----------------|----------------|----------------|

 |                                                                   |

E|----------------|----------------|----------------|----------------|

A|----------------|0-0-0-0---------|0-0---0---0-2---|0-0-0-0-0-------|

D|----------------|----------5-2-5-|----------------|----------5-2-5-|

G|2-2-2-2-0-------|----------------|----------------|----------------|



E|----5-------5---|--3-2-0-2-3-2-0-|----5-------5---|--3-2-0---0-0-0-|

A|----0-------0---|----------------|----0-------0---|--------3---3-3-|

D|----4-------4---|----------------|----4-------4---|----------------|

G|----------------|----------------|----------------|----------------|

 |                                                                   |

E|----------------|----------------|----------------|----------------|

A|----0-0-----0-0-|--0-0-0---0-0-0-|----0-0-----0-0-|--0-0-0---0-0-0-|

D|----------------|----------------|----------------|----------------|

G|----------------|----------------|----------------|----------------|



E|2-----2---0-3-0-|2-----2---0---0-|2-----2---0-3-0-|2-----2---0---0-|

A|0-0-0-0-----2---|0-0-0-0-0---3---|0-0-0-0-0---2---|0-0-0-0-0---3---|

D|----------------|------------2---|----------------|------------2---|

G|----------------|----------------|----------------|----------------|

 |                                                                   |

E|----------------|----------------|----------------|----------------|

A|----------------|0-0-0-0---------|0-0---0---0-2---|0-0-0-0-0-------|

D|----------------|----------5-2-5-|----------------|----------5-2-5-|

G|2-2-2-2-0-------|----------------|----------------|----------------|



E|----5-------5---|--3-2-0-2-3-2-0-|----5-------5---|--3-2-0---0-0-0-|

A|----0-------0---|----------------|----0-------0---|--------3---3-3-|

D|----4-------4---|----------------|----4-------4---|----------------|

G|----------------|----------------|----------------|----------------|

 |                                                                   |

E|----------------|----------------|----------------|----------------|

A|----0-0-----0-0-|--0-0-0---0-0-0-|----0-0-----0-0-|--0-0-0---0-0-0-|

D|----------------|----------------|----------------|----------------|

G|----------------|----------------|----------------|----------------|



E|2-----2---0-3-0-|2-----2---0---0-|2-----2---0-3-0-|2-----2---0---0-|

A|0-0-0-0-----2---|0-0-0-0-0---3---|0-0-0-0-0---2---|0-0-0-0-0---3---|

D|----------------|------------2---|----------------|------------2---|

G|----------------|----------------|----------------|----------------|

 |                                                                   |

E|----------------|----------------|----------------|----------------|

A|----------------|0-0-0-0---------|0-0---0---0-2---|0-0-0-0-0-------|

D|----------------|----------5-2-5-|----------------|----------5-2-5-|

G|2-2-2-2-0-------|----------------|----------------|----------------|



E|0-0-0-0-0-0-0-0-|5-5-5-5---5-5---|0-0-0-0---0-0-0-|0-5-5-5---5-5-0-|

A|3-3-3-3-3-3-3-3-|0-0-0-0---0-0---|3-3-3-3---3-3-3-|3-0-0-0---0-0-3-|

D|5-5-5-5-5-5-5-5-|4-4-4-4---4-4---|5-5-5-5---5-5-5-|5-4-4-4---4-4---|

G|----------------|----------------|----------------|----------------|

 |                                                                   |

E|----------------|----------------|----------------|----------------|

A|----------------|----------------|----------------|----------------|

D|--5-5-5---5-5-5-|--4-4-4---4-4---|--5-5-5---5-5-5-|--4-4-4---4-4---|

G|--5-5-5---5-5-5-|--2-2-2---2-2---|--5-5-5---5-5-5-|--2-2-2---2-2---|

  At last, the sun is shining.....



E|0-3---3---3-3-3-|3-0-0-0---0-0-0-|3-3-3-3-3-3-3-3-|3-0-0-0---0-0-0-||

A|3-2---2---2-2-2-|2-3-3-3---3-3-3-|2-2-2-2-2-2-2-2-|2-3-3-3---3-3-3-||

D|--3---3---3-3-3-|3-2-2-2---2-2-2-|3-3-3-3-3-3-3-3-|3-2-2-2---2-2-2-||

G|----------------|----------------|----------------|----------------||

 |                                                                   ||

E|----------------|----------------|----------------|----------------||

A|----------------|----------------|----------------|----------------||

D|--3-3-3---3-3-3-|5-2-2-2---2-2-2-|--3-3-3---3-3-3-|5-2-2-2---2-2-2-||

G|--0-0-0---0-0-0-|0-0-0-0---0-0-0-|--0-0-0---0-0-0-|0-0-0-0---0-0-0-||



E|----0-0-----0-0-|----0-0-----0-0-|----0-0-----0-0-|----0-0-----0-0-|

A|--3-------3-----|--3-------3-----|--3-------3-----|--3-------3-----|

D|7-------7-------|7-------7-------|7-------7-------|7-------7-------|

G|----------------|----------------|----------------|----------------|

 |                                                                   |

E|----------------|----------------|----------------|----------------|

A|----------------|----------------|----------------|----------------|

D|----------------|----------------|----------------|----------------|

G|----------------|----------------|----------------|----------------|

 |                                                                   |

E|----------------|----------------|----------------|----------------|

A|----------------|----------------|----------------|----------------|

D|----------------|----------------|----------------|----------------|

G|----------------|----------------|2---------------|----------------|



E|----0-0-----0-0-|----0-0-----0-0-|----0-0-----0-0-|----0-0-----0-0-|

A|--3-------3-----|--3-------3-----|--3-------3-----|--3-------3-----|

D|7-------7-------|7-------7-------|7-------7-------|7-------7-------|

G|----------------|----------------|----------------|----------------|

 |                                                                   |

E|----------------|----------------|----------------|----------------|

A|----------------|----------------|----------------|----------------|

D|----------------|----------------|----------------|----------------|

G|----------------|----------------|----------------|----------------|

 |                                                                   |

E|----------------|----------------|----------------|----------------|

A|----------------|----------------|----------------|----------------|

D|0---------------|----------------|1---------------|----------------|

G|----------------|----------------|----------------|----------------|



E|----0-0-----0-0-|----0-0-----0-0-|----0-0-----0-0-|----0-0-----0-0-|

A|--3-------3-----|--3-------3-----|--3-------3-----|--3-------3-----|

D|7-------7-------|7-------7-------|7-------7-------|7-------7-------|

G|----------------|----------------|----------------|----------------|

 |                                                                   |

E|----------------|----------------|----------------|----------------|

A|----------------|----------------|----------------|----------------|

D|----------------|----------------|----------------|----------------|

G|----------------|----------------|----------------|----------------|

 |                                                                   |

E|----------------|----------------|----------------|----------------|

A|----------------|----------------|----------------|----------------|

D|2---------------|----------------|1---------------|----------------|

G|----------------|----------------|----------------|----------------|



E|----0-0-----0-0-|----0-0-----0-0-|----0-0-----0-0-|----0-0-----0-0-|

A|--3-------3-----|--3-------3-----|--3-------3-----|--3-------3-----|

D|7-------7-------|7-------7-------|7-------7-------|7-------7-------|

G|----------------|----------------|----------------|----------------|

 |                                                                   |

E|----------------|----------------|----------------|----------------|

A|----------------|----------------|----------------|----------------|

D|----------------|----------------|----------------|----------------|

G|----------------|----------------|----------------|----------------|

 |                                                                   |

E|----------------|----------------|----------------|----------------|

A|----------------|----------------|----------------|----------------|

D|0---------------|----------------|1---------------|----------------|

G|----------------|----------------|----------------|----------------|



E|----0-0-0-0-0-0-|0-0-0-0-0-0-0-0-|0-0-0-0-0-0-0-0-|0-0-0-0-0-0-0-0-|

A|----2-2-2-2-2-2-|2-2-2-2-2-2-2-2-|2-2-2-2-2-2-2-2-|2-2-2-2-2-2-2-2-|

D|----------------|----------------|----------------|----------------|

G|----------------|----------------|----------------|----------------|

 |                                                                   |

E|----------------|----------------|----------------|----------------|

A|----2-2-2-----2-|--5---5---3---2-|--2-2-2---5---3-|------2---5---3-|

D|----------------|----------------|----------------|-5--------------|

G|----------------|----------------|----------------|----------------|

 |                                                                   |

E|----------------|----------------|----------------|----------------|

A|----------------|----------------|----------------|----------------|

D|----------------|----------------|----------------|----------------|

G|----------------|----------------|----------------|----------------|



E|0-0-0-0-0-0-0-0-|0-0-0-0-0-0-0-0-|0-0-0-0-0-0-0-0-|0-0-0-5-2-0---0-||

A|2-2-2-2-2-2-2-2-|2-2-2-2-2-2-2-2-|2-2-2-2-2-2-2-2-|2-2-2-------3---||

D|----------------|----------------|----------------|----------------||

G|----------------|----------------|----------------|----------------||

 |                                                                   ||

E|----------------|----------------|----------------|----------------||

A|--2-------5---3-|--2-------5---3-|--2-------2---3-|2-0-0-0-0-0-3-0-||

D|------5---------|------5---------|------5---------|----------------||

G|----------------|----------------|----------------|----------------||

 |                                                                   ||

E|----------------|----------------|----------------|----------------||

A|----------------|----------------|----------------|----------------||

D|----------------|----------------|----------------|----------------||

G|----------------|----------------|----------------|----------------||



E|2---0-2-0-0-3-0-|2-0-0-2-0-0---0-|2---0-2-0-0-3-0-|2-0-0-2-0-0---0-|

A|0-0-0-0-0-0-2-0-|0-0-0-0-0-0-3---|0-0-0-0-0-0-2-0-|0-0-0-0-0-0-3---|

D|----------------|------------2---|----------------|------------2---|

G|----------------|----------------|----------------|----------------|

 |                                                                   |

E|----------------|----------------|----------------|----------------|

A|0-0-0-------2-0-|0-0-0-------2-0-|0-0-0-------2-0-|0-0-0-------2-0-|

D|------2---5-----|------2---5-----|------2---5-----|------2---5-----|

G|----------------|----------------|----------------|----------------|

  Bring it back.....bring it back.....



E|2---0-2-0-0-3-0-|2-0-0-2-0-0---0-|2---0-2-0-0-3-0-|2-0-0-2-0-0---0-|

A|0-0-0-0-0-0-2-0-|0-0-0-0-0-0-3---|0-0-0-0-0-0-2-0-|0-0-0-0-0-0-3---|

D|----------------|------------2---|----------------|------------2---|

G|----------------|----------------|----------------|----------------|

 |                                                                   |

E|----------------|----------------|----------------|----------------|

A|0-0-0-------2-0-|0-0-0-------2-0-|0-0-0-------2-0-|0-0-0-------2-0-|

D|------2---5-----|------2---5-----|------2---5-----|------2---5-----|

G|----------------|----------------|----------------|----------------|



E|----5-------5---|--3-2-0-2-3-2-0-|----5-------5---|--3-2-0---0-0-0-|

A|----0-------0---|----------------|----0-------0---|--------3---3-3-|

D|----4-------4---|----------------|----4-------4---|----------------|

G|----------------|----------------|----------------|----------------|

 |                                                                   |

E|----------------|----------------|----------------|----------------|

A|----0-0-----0-0-|--0-0-0---0-0-0-|----0-0-----0-0-|--0-0-0---0-0-0-|

D|----------------|----------------|----------------|----------------|

G|----------------|----------------|----------------|----------------|



E|2---0-2-0-0-3-0-|2-0-0-2-0-0---0-|2---0-2-0-0-3-0-|2-0-0-2-0-0---0-|

A|0-0-0-0-0-0-2-0-|0-0-0-0-0-0-3---|0-0-0-0-0-0-2-0-|0-0-0-0-0-0-3---|

D|----------------|------------2---|----------------|------------2---|

G|----------------|----------------|----------------|----------------|

 |                                                                   |

E|----------------|----------------|----------------|----------------|

A|0-0-0-------2-0-|0-0-0-------2-0-|0-0-0-------2-0-|0-0-0-------2-0-|

D|------2---5-----|------2---5-----|------2---5-----|------2---5-----|

G|----------------|----------------|----------------|----------------|



E|----5-------5---|--3-2-0-2-3-2-0-|----5-------5---|--3-2-0---0-0-0-|

A|----0-------0---|----------------|----0-------0---|--------3---3-3-|

D|----4-------4---|----------------|----4-------4---|----------------|

G|----------------|----------------|----------------|----------------|

 |                                                                   |

E|----------------|----------------|----------------|----------------|

A|----0-0-----0-0-|--0-0-0---0-0-0-|----0-0-----0-0-|--0-0-0---0-0-0-|

D|----------------|----------------|----------------|----------------|

G|----------------|----------------|----------------|----------------|


E|2---0-2-0-0-3-0-|2-0-0-2-0-0---0-|2---0-2-0-0-3-0-|2-0-0-2-0-0---0-|

A|0-0-0-0-0-0-2-0-|0-0-0-0-0-0-3---|0-0-0-0-0-0-2-0-|0-0-0-0-0-0-3---|

D|----------------|------------2---|----------------|------------2---|

G|----------------|----------------|----------------|----------------|

 |                                                                   |

E|----------------|----------------|----------------|----------------|

A|0-0-0-------2-0-|0-0-0-------2-0-|0-0-0-------2-0-|0-0-0-------2-0-|

D|------2---5-----|------2---5-----|------2---5-----|------2---5-----|

G|----------------|----------------|----------------|----------------|



E|--2---2---3---3-|--2---2---------|--2---2---3---3-|--2---2---------|

A|--3---3---2---2-|--0---0---3---3-|--3---3---2---2-|--0---0---3---3-|

D|----------------|----------2---2-|----------------|----------2---2-|

G|----------------|----------------|----------------|----------------|

 |                                                                   |

E|----------------|----------------|----------------|----------------|

A|0-0-0-------2-0-|------0---------|--0---0---2---2-|------0---------|

D|------2---5-----|--5-5---5-2---2-|----------------|--5-5---5-2---2-|

G|----------------|----------------|----------------|----------------|



E| 2-2---2-3-3---2-|--2-------0---0- |

A|o0-0---0-2-2---0-|--0---3---3---0-o|

D|o----------------|------2---2-----o| Repeat- fade

G| ----------------|---------------- |

 |                                   |

E| ----------------|---------------- |

A|o------0-2-2---2-|--0---0---0---0-o|

D|o--2-------------|2-------2-----2-o|

G| ----------------|---------------- |