FANDOM


Anna (Go To Him) by The Beatles.



Intro:

G|------- ------- ------- -------|------- ------- ------- -------|

D|------------7------------------|-------------------------------|

A|5-----------------------5---4--|------------9------------------|

E|-------------------------------|7------------------------------|




G|------- ------- ------- -------|------- ------- ------- -------|

D|------------7------------------|-------------------------------|

A|5-----------------------5---4--|------------9------------------|

E|-------------------------------|7------------------------------|



Verse:

G|------- ------- ------- -------|------- ------- ------- -------|

D|------------7------------------|------------4------------------|

A|5-----------------------5---4--|----------------------------4--|

E|-------------------------------|7-------------------5---7------|

  An    -     na,                             you called  asked

                                                      and


G|------- ------- ------- -------|------- ------- ------- -------|

D|------------7------------------|------------4-----------4------|

A|5-----------------------5---4--|-------------------------------|

E|-------------------------------|7------------------------------|

  me, girl                                    to  set     you



G|------- ------- ------- -------|------- ------- ------- -------|

D|------------7------------------|------------4-----------4------|

A|5-----------------------5---4--|----------------------------5--|

E|-------------------------------|7------------------------------|

  free, girl                                  You say he loves you


Refrain:

G|------- ------- ------- -------|------- ------- ------- -------|

D|-------------------------------|------------7-----------7------|

A|5---------------------------5--|7---------------------------4--|

E|------------7-----------7------|-------------------------------|

  more    than me,    so  I  will set you     free,       go  with



G|------- ------- ------- -------|------- ------- ------- -------|

D|------------7------------------|------------4------------------|

A|5-----------------------5------|----------------------------4--|

E|-------------------------------|7-----------------------7------|

  him                                                     go  with

                              An      -       na


G|------- ------- ------- -------|------- ------- ------- -------|

D|------------7------------------|------------4------------------|

A|5-----------------------5------|----------------------------4--|

E|-------------------------------|7-----------------------7------|

  him

                              An      -       na

Verse:

G|------- ------- ------- -------|------- ------- ------- -------|

D|------------7------------------|------------4------------------|

A|5-----------------------5---4--|----------------------------4--|

E|-------------------------------|7-----------------------7------|

  An    -     na,                             girl,   be- fore you



G|------- ------- ------- -------|------- ------- ------- -------|

D|------------7------------------|------------4------------------|

A|5-----------------------5---4--|----------------------------4--|

E|-------------------------------|7-----------------------7------|

  go  now,                                    I   want    you to



G|------- ------- ------- -------|------- ------- ------- -------|

D|------------7------------------|------------4------------------|

A|5-----------------------5---4--|------------------------4------|

E|-------------------------------|7---------------------------5--|

  know now                                    That I      still


Refrain:

G|------- ------- ------- -------|------- ------- ------- -------|

D|-------------------------------|------------7-----------7------|

A|5---------------------------5--|7------------------------------|

E|------------7------------------|-------------------------------|

  love you    so,     but if  he  loves you   more,       go  with



G|------- ------- ------- -------|------- ------- ------- -------|

D|------------7-----------7------|------------------------4------|

A|5---------------------------4--|5-------5-------7--------------|

E|-------------------------------|-------------------------------|

  him

                                          Aaaaaaaaaaaaaaaaaaaaaaa

Bridge:

G|------- ------- ------- -------|------- ------- ------- -------|

D|5-----------5---------------4--|5-----------5---------------4--|

A|------------------------5------|------------------------5------|

E|-------------------------------|-------------------------------|

                  All of  my  life,                       I've been

  aaaaaaaaaaaaaaaaaaaaaaaaaaaaaaaaaaaaaaaaaaaaaaaaaaaaaaaaaaaaaaa


G|------- ------- ------- -------|------- ------- ------- -------|

D|5-----------5---------------4--|5-----------5------------------|

A|------------------------5------|----------------------------4--|

E|-------------------------------|------------------------5------|

  searching           for a   girl                            to

  aaaaaaaaaaaaaaaaaaaaaaaaaaaaaaaaaaaaaaaaaaaaaaaaaaaaaaaaaaaaaaa


G|------- ------- ------- -------|------- ------- ------- -------|

D|-------------------------------|-------------------------------|

A|5-----------5---------------4--|5-----------5---------------4--|

E|------------------------5------|------------------------5------|

  love me                 like    I                       love

  aaaaaaaaaaaaaaaaaaaaaaaaaaaaaaaaaaaaaaaaaaaaaaaaaaaaaaaaaaaaaaa


G|------- ------- ------- -------|------- ------- ------- -------|

D|-------------------------------|------------------------4------|

A|5-----------5---------------4--|5-------5-------7--------------|

E|------------------------5------|-------------------------------|

  you                                         oh,     now!

  aaaaaaaaaaaaaaaaaaaaaaaaaaaaaaa         aaaaaaaaaaaaaaaaaaaaaaa


G|------- ------- ------- -------|------- ------- ------- -------|

D|5-----------5---------------4--|5-----------5---------------4--|

A|------------------------5------|------------------------5------|

E|-------------------------------|-------------------------------|

              But     every girl I've ever had

  aaaaaaaaaaaaaaaaaaaaaaaaaaaaaaaaaaaaaaaaaaaaaaaaaaaaaaaaaaaaaaa


G|------- ------- ------- -------|------- ------- ------- -------|

D|5-----------5---------------4--|5-----------5------------------|

A|------------------------5------|----------------------------5--|

E|-------------------------------|------------------------7------|

              breaks  my      heart, and leaves me sad,

  aaaaaaaaaaaaaaaaaaaaaaaaaaaaaaaaaaaaaaaaaaaaaaaaaaaaaaaaaaaaaaa


G|------- ------- ------- -------|------- ------- ------- -------|

D|-------------------------------|----------------------------6--|

A|7-----------7---------------5--|7-----------7-----------7------|

E|------------------------7------|-------------------------------|

              what am I,      what am I       supposed        to

  aaaaaaaaaaaaaaaaaaaaaaaaaaaaaaaaaaaaaaaaaaaaaaaaaaaaaaaaaaaaaaa


G|------- ------- ------- -------|------- ------- ------- -------|

D|7-----------7-----------7------|7---7---5---5---4---4----------|

A|-------------------------------|------------------------7------|

E|-------------------------------|----------------------------5--|

  do?                             Oh,  oh,  oh,   oh,  oh,  oh,

  aaaaaaaaaaaaaaaaaaaaaaaaaaaaaaah

Verse:

G|------- ------- ------- -------|------- ------- ------- -------|

D|------------7------------------|-------------------------------|

A|5-----------------------5---4--|------------9------------------|

E|-------------------------------|7-----------------------7------|

  An    -     na,                             just one    more



G|------- ------- ------- -------|------- ------- ------- -------|

D|------------7------------------|------------4-----------4------|

A|5-----------------------5---4--|-------------------------------|

E|-------------------------------|7------------------------------|

  thing, girl                                 You give    back your


Refrain:

G|------- ------- ------- -------|------- ------- ------- -------|

D|-------------------------------|------------7-----------7------|

A|5------------------------------|7---------------------------4--|

E|------------7------------------|-------------------------------|

  ring    to  me,     so  I   will set you    free,       go  with



G|------- ------- ------- -------|------- ------- ------- -------|

D|------------7-----------7------|------------------------4------|

A|5---------------------------4--|5-------5-------7--------------|

E|-------------------------------|-------------------------------|

  him

                                          Aaaaaaaaaaaaaaaaaaaaaaa

Bridge:

G|------- ------- ------- -------|------- ------- ------- -------|

D|5-----------5------------------|5-----------5------------------|

A|-------------------------------|-------------------------------|

E|-------------------------------|-------------------------------|

                  All of  my  life,                       I've been

  aaaaaaaaaaaaaaaaaaaaaaaaaaaaaaaaaaaaaaaaaaaaaaaaaaaaaaaaaaaaaaa


G|------- ------- ------- -------|------- ------- ------- -------|

D|5-----------5------------------|5-----------5------------------|

A|-------------------------------|-------------------------------|

E|-------------------------------|-------------------------------|

  searching           for a   girl                            to

  aaaaaaaaaaaaaaaaaaaaaaaaaaaaaaaaaaaaaaaaaaaaaaaaaaaaaaaaaaaaaaa


G|------- ------- ------- -------|------- ------- ------- -------|

D|-------------------------------|-------------------------------|

A|5-----------5------------------|5-----------5------------------|

E|-------------------------------|-------------------------------|

  love me                 like    I                       love

  aaaaaaaaaaaaaaaaaaaaaaaaaaaaaaaaaaaaaaaaaaaaaaaaaaaaaaaaaaaaaaa


G|------- ------- ------- -------|------- ------- ------- -------|

D|-------------------------------|------------------------4------|

A|5-----------5------------------|5-------5-------7--------------|

E|-------------------------------|-------------------------------|

  you                                 but let me  tell you now!

  aaaaaaaaaaaaaaaaaaaaaaaaaaaaaaa         aaaaaaaaaaaaaaaaaaaaaaa


G|------- ------- ------- -------|------- ------- ------- -------|

D|5-----------5------------------|5-----------5------------------|

A|-------------------------------|-------------------------------|

E|-------------------------------|-------------------------------|

              But     every girl I've ever had

  aaaaaaaaaaaaaaaaaaaaaaaaaaaaaaaaaaaaaaaaaaaaaaaaaaaaaaaaaaaaaaa


G|------- ------- ------- -------|------- ------- ------- -------|

D|5-----------5------------------|5-----------5------------------|

A|-------------------------------|----------------------------5--|

E|-------------------------------|------------------------7------|

              breaks  my      heart, and leaves me sad,

  aaaaaaaaaaaaaaaaaaaaaaaaaaaaaaaaaaaaaaaaaaaaaaaaaaaaaaaaaaaaaaa


G|------- ------- ------- -------|------- ------- ------- -------|

D|-------------------------------|-------------------------------|

A|7-----------7------------------|7-----------7------------------|

E|-------------------------------|-------------------------------|

              what am I,      what am I       supposed        to

  aaaaaaaaaaaaaaaaaaaaaaaaaaaaaaaaaaaaaaaaaaaaaaaaaaaaaaaaaaaaaaa


G|------- ------- ------- -------|------- ------- ------- -------|

D|7-----------7------------------|7-------5-------4--------------|

A|-------------------------------|------------------------7------|

E|-------------------------------|----------------------------5--|

  do?                             Oh,  oh,  oh,   oh,  oh,  oh,

  aaaaaaaaaaaaaaaaaaaaaaaaaaaaaaah

Verse:

G|------- ------- ------- -------|------- ------- ------- -------|

D|------------7------------------|-------------------------------|

A|5-----------------------5---4--|------------9------------------|

E|-------------------------------|7------------------------------|

  An    -     na,                             just one    more



G|------- ------- ------- -------|------- ------- ------- -------|

D|------------7------------------|-------------------------------|

A|5-----------------------5---4--|------------9------------------|

E|-------------------------------|7------------------------------|

  thing, girl                                 You give    back your


Refrain:

G|------- ------- ------- -------|------- ------- ------- -------|

D|-------------------------------|------------7------------------|

A|5---------------------------5--|7---------------------------4--|

E|------------7-----------7------|--------------------5---7------|

  ring    to  me,     so  I   will set you    free,       go  with



G|------- ------- ------- -------|------- ------- ------- -------|

D|------------7------------------|------------4------------------|

A|5-----------------------5------|----------------------------4--|

E|-------------------------------|7-----------------------5------|

  him                                                     go  with

                              An      -       na


G|------- ------- ------- -------|------- ------- ------- -------|

D|------------7------------------|------------4------------------|

A|5-----------------------5------|----------------------------4--|

E|-------------------------------|7-----------------------5------|

  him                                     You can go      with him,

                              An      -       na

Outro:

G|------- ------- ------- -------|------- ------- ------- -------|

D|------------7------------------|------------4------------------|

A|5-----------------------5------|-------------------------------|

E|-------------------------------|7-----------------------7------|

      girl                                                go  with

                              An      -       na


G|------- ------- ------- -------|------- ------- ------- -------|

D|-------------------------------|-------------------------------|

A|5------------------------------|-------------------------------|

E|-------------------------------|-------------------------------|

  him

Ad blocker interference detected!


Wikia is a free-to-use site that makes money from advertising. We have a modified experience for viewers using ad blockers

Wikia is not accessible if you’ve made further modifications. Remove the custom ad blocker rule(s) and the page will load as expected.