FANDOM


Ask Me Why by The Beatles.



Intro:

G|------- ------- ------- -------|------- ------- ------- -------|

D|------------9------------------|-------------------------------|

A|7------------------------------|7---------------7-------9------|

E|------------------------7------|-------------------------------|

                                                  I       love


Verse:

G|------- ------- ------- -------|------- ------- ------- -------|

D|6-----------6-----------6------|4-----------4------------------|

A|----------------6--------------|----------------4--------------|

E|-------------------------------|------------------------7------|

  you,                                    cause   tell me things I

                                              you


G|------- ------- ------- -------|------- ------- ------- -------|

D|------------9------------------|-------------------------------|

A|7------------------------------|7---------------7-------9------|

E|------------------------7------|-------------------------------|

  I want  to  know,                               And     it's



G|------- ------- ------- -------|------- ------- ------- -------|

D|6-----------6-----------6------|4-----------4------------------|

A|----------------6--------------|----------------4--------------|

E|-------------------------------|------------------------7------|

  true                                    that it really  on- ly



G|------- ------- ------- -------|------- ------- ------- -------|

D|------------9------------------|6-----------6------------------|

A|7-------------------7---9---9--|----------------6-------5------|

E|-------------------------------|-------------------------------|

  goes    to  show                that I      know            That



G|------- ------- ------- -------|------- ------- ------- -------|

D|------------6------------------|------------6------------------|

A|4------------------------------|4-----------------------4------|

E|------------------------4------|-------------------------------|

  I,              I,  I,      I                               should

  Ooooooooooooooooooooooooooooooooooooooooooooooooooooooooooooooo


G|------- ------- ------- -------|------- ------- ------- -------|

D|7-----------7-----------7------|-------------------------------|

A|----------------7--------------|9-----------9-----------9------|

E|-------------------------------|-------------------------------|

  never,  never,  never   be      blue

  ooooooooooooooooooooooooooooooooooooooooooooooooooooooooooooooo


G|------- ------- ------- -------|

D|-------------------------------|

A|----------------7-------9------|

E|7------------------------------|

                  Now     you're

  ooo

Verse:

G|------- ------- ------- -------|------- ------- ------- -------|

D|6-----------6-----------6------|4-----------4------------------|

A|----------------6--------------|----------------4--------------|

E|-------------------------------|------------------------7------|

  mine,                                       my  happi - ness still



G|------- ------- ------- -------|------- ------- ------- -------|

D|------------9------------------|-------------------------------|

A|7------------------------------|7---------------7-------9------|

E|------------------------7------|-------------------------------|

  makes   me  cry,                                And     in



G|------- ------- ------- -------|------- ------- ------- -------|

D|6-----------6-----------6------|4-----------4------------------|

A|----------------6--------------|----------------4--------------|

E|-------------------------------|------------------------7------|

  time                                        you'll          the

                                                  un- derstand


G|------- ------- ------- -------|------- ------- ------- -------|

D|------------9------------------|6-----------6------------------|

A|7-------------------7---9---9--|----------------6-------5------|

E|-------------------------------|-------------------------------|

  rea  -  son why                 if  I       cry,            It's



G|------- ------- ------- -------|------- ------- ------- -------|

D|------------6------------------|------------6------------------|

A|4------------------------------|4-----------------------4------|

E|------------------------4------|-------------------------------|

  not         be- cause I'm   sad,                    but you're

                                                              the

  Ooooooooooooooooooooooooooooooooooooooooooooooooooooooooooooooo

G|------- ------- ------- -------|------- ------- ------- -------|

D|7-----------7-----------7------|------------9------------------|

A|----------------7--------------|7------------------------------|

E|-------------------------------|------------------------7------|

  only  girl that I've    e - ver had

  oooooooooooooooooooooooooooooooo


G|------- ------- ------- -------|

D|----------------9--------------|

A|7-----------7-----------7------|

E|-------------------------------|

                  I    can't be-


Bridge:

G|------- ------- ------- -------|------- ------- ------- -------|

D|7------------------------------|9-------7-------6--------------|

A|--------9-------7--------------|------------------------9------|

E|------------------------9------|-------------------------------|

  lieve                                       it's hap-   to

                                                       pened


G|------- ------- ------- -------|------- ------- ------- -------|

D|----------------9-------9------|----------------9--------------|

A|7-------7----------------------|7-------7---------------7------|

E|----------------------------7--|-------------------------------|

  me,                                             I    can't con-



G|------- ------- ------- -------|------- ------- ------- -------|

D|7------------------------------|9-------7-------6--------------|

A|--------9-------7--------------|------------------------9------|

E|------------------------9------|-------------------------------|

  ceive                                       of  a - ny  more



G|------- ------- ------- -------|------- ------- ------- -------|

D|-------------------------------|-------------------------------|

A|7---7---7----------------------|----------------7-------9------|

E|-------------------------------|--------7----------------------|

                  Mi- se  -   ry                  Ask     me


Refrain:

G|------- ------- ------- -------|------- ------- ------- -------|

D|6-----------6-----------6------|-------------------------------|

A|----------------6--------------|----------------4-------7------|

E|-------------------------------|5-----------5------------------|

  why,                I'll say I  love you,           and     I'm

                                  Ooooooooooooooooooooooooooooooo


G|------- ------- ------- -------|------- ------- ------- -------|

D|6-----------6-----------6------|-------------------------------|

A|----------------6--------------|----------------4-------6------|

E|-------------------------------|5-----------5------------------|

  al  -   ways thin - king    of  you

  ooooooooooooooooooooooooooooooooooooooooooooooooooooooooooooooo


G|------- ------- ------- -------|------- ------- ------- -------|

D|----------------9--------------|-------------------------------|

A|7-----------7------------------|7---------------7-------9------|

E|------------------------7------|-------------------------------|

                                                  I       love


Verse:

G|------- ------- ------- -------|------- ------- ------- -------|

D|6-----------6-----------6------|4-----------4------------------|

A|----------------6--------------|----------------4--------------|

E|-------------------------------|------------------------7------|

  you,                                    cause   tell me things I

                                              you


G|------- ------- ------- -------|------- ------- ------- -------|

D|----------------9--------------|-------------------------------|

A|7-----------7------------------|7---------------7-------9------|

E|------------------------7------|-------------------------------|

  I want  to  know,                               And     it's



G|------- ------- ------- -------|------- ------- ------- -------|

D|6-----------6-----------6------|4-----------4------------------|

A|----------------6--------------|----------------4--------------|

E|-------------------------------|------------------------7------|

  true                                    that it really  on- ly



G|------- ------- ------- -------|------- ------- ------- -------|

D|------------9------------------|6-----------6------------------|

A|7-------------------7---9---9--|----------------6-------5------|

E|-------------------------------|-------------------------------|

  goes    to  show                that I      know            That



G|------- ------- ------- -------|------- ------- ------- -------|

D|----------------6-------6------|----------------6--------------|

A|4-----------4------------------|4-----------4-----------4------|

E|-------------------------------|-------------------------------|

  I,              I,  I,      I                               should

  Ooooooooooooooooooooooooooooooooooooooooooooooooooooooooooooooo


G|------- ------- ------- -------|------- ------- ------- -------|

D|7-----------7-----------7------|-------------------------------|

A|----------------7--------------|9-----------9-----------9------|

E|-------------------------------|-------------------------------|

  never,  never,  never   be      blue

  ooooooooooooooooooooooooooooooooooooooooooooooooooooooooooooooo


G|------- ------- ------- -------|

D|-------------------------------|

A|----------------7-------9------|

E|7------------------------------|

                  Ask     me

  ooo

Refrain:

G|------- ------- ------- -------|------- ------- ------- -------|

D|6-----------6-----------6------|-------------------------------|

A|----------------6--------------|----------------4-------7------|

E|-------------------------------|5-----------5------------------|

  why,                I'll say I  love you,           and     I'm

                                  Ooooooooooooooooooooooooooooooo


G|------- ------- ------- -------|------- ------- ------- -------|

D|6-----------6-----------6------|-------------------------------|

A|----------------6--------------|----------------4-------6------|

E|-------------------------------|5-----------5------------------|

  al  -   ways thin - king    of  you

  ooooooooooooooooooooooooooooooooooooooooooooooooooooooooooooooo


G|------- ------- ------- -------|------- ------- ------- -------|

D|----------------9-------9------|----------------9--------------|

A|7-----------7------------------|7-----------7-----------7------|

E|-------------------------------|-------------------------------|

                                                  I    can't be-


Bridge:

G|------- ------- ------- -------|------- ------- ------- -------|

D|-------------------------------|-------------------------------|

A|--------4-------7-------4------|--------6-------9-------6------|

E|5------------------------------|7------------------------------|

  lieve                                       it's hap-   to

                                                       pened


G|------- ------- ------- -------|------- ------- ------- -------|

D|-------------------------------|-------------------------------|

A|7-------7-------------------6--|7-------5-------4--------------|

E|----------------7-------7------|------------------------7------|

  me,                                             I    can't con-



G|------- ------- ------- -------|------- ------- ------- -------|

D|-------------------------------|-------------------------------|

A|----------------4-------7------|--------6-------9-------6------|

E|5-------5----------------------|7------------------------------|

  ceive                                       of  a - ny  more



G|------- ------- ------- -------|------- ------- ------- -------|

D|-------------------------------|-------------------------------|

A|7---7---7----------------------|----------------7-------9------|

E|-------------------------------|--------7----------------------|

                  Mi- se  -   ry                  Ask     me


Refrain:

G|------- ------- ------- -------|------- ------- ------- -------|

D|6-----------6-----------6------|-------------------------------|

A|----------------6--------------|----------------4-------7------|

E|-------------------------------|5-----------5------------------|

  why,                I'll say I  love you,           and     I'm

                                  Ooooooooooooooooooooooooooooooo


G|------- ------- ------- -------|------- ------- ------- -------|

D|6-----------6-----------6------|-------------------------------|

A|----------------6--------------|----------------4-------6------|

E|-------------------------------|5-----------5------------------|

  al  -   ways thin - king    of  you

  ooooooooooooooooooooooooooooooooooooooooooooooooooooooooooooooo


G|------- ------- ------- -------|------- ------- ------- -------|

D|------------9-----------9------|------------9-----------9------|

A|7------------------------------|7------------------------------|

E|-------------------------------|-------------------------------|

                                  You


Outro:

G|------- ------- ------- -------|------- ------- ------- -------|

D|------------9-----------9------|------------9-----------9------|

A|7------------------------------|7------------------------------|

E|-------------------------------|-------------------------------|

                                  You



G|-------------------------------|-------------------------------|

D|-------------------------------|-------------------------------|

A|-------------------------------|-------------------------------|

E|7------------------------------|-------------------------------|

Ad blocker interference detected!


Wikia is a free-to-use site that makes money from advertising. We have a modified experience for viewers using ad blockers

Wikia is not accessible if you’ve made further modifications. Remove the custom ad blocker rule(s) and the page will load as expected.