FANDOM


Boys by The Beatles.



Solo:


 B7                            E7

-|----------------------------|----------------------------|----------------------------|

-|---8/9-9---8-/8-/8--/8--/8--|8------------8----8---------|---3---3--3---3--3----------|

-|-----------9-/9-/9--/9--/9--|-------8-----8h9--8h9-------|---4---4--4---4--4---2--0---|

-|----------------------------|----------------------------|----------------------------|

-|----------------------------|----------------------------|----------------------------|

-|----------------------------|----------------------------|----------------------------|

  ^      ^      ^      ^       ^      ^      ^      ^


-|----------------------------|---12------12-----12----12--|

-|----------------------------|-------9-----10-----11------|

-|----------------------------|----------------------------|

-|2------2--------------------|----------------------------|

-|----------------------------|----------------------------|

-|----------------------------|----------------------------|

  ^      ^      ^      ^       ^      ^      ^      ^

  A7

-|-----------------15---------|15----------------------------|

-|12---------------13b15-13b15|13b15-------------------14----|

-|----------------------------|------------------------13b15-|

-|----------------------------|------------------------------|

-|----------------------------|------------------------------|

-|----------------------------|------------------------------|

  ^      ^      ^      ^       ^      ^      ^      ^

  E7

-|----------------------------|----------------------------|

-|14---14---14------12--------|----------------------------|

-|13b1513b1513b15---12h13-----|----------------------------|

-|------------------------14--|14--------------------------|

-|----------------------------|----------------------------|

-|----------------------------|----------------------------|

  ^      ^      ^      ^       ^      ^      ^      ^


  B7                           A7

-|--------------12-----12-----|12-----12-------------------|

-|12-----12-----12-----12-----|12-----12-------------------|

-|141b6--14b16--14b16--14b16--|14b16--14b16--16r14-12------|

-|----------------------------|----------------------14----|

-|----------------------------|----------------------------|

-|----------------------------|----------------------------|

  ^      ^      ^      ^       ^      ^      ^      ^

  E7                           B7

-|-------0------0------0------|0---------------------------|

-|-------0----0-0----0-0----0-|0----0----------------------|

-|-------4------3------2------|0---------------------------|

-|----------------------------|-------2------2p0-----------|

-|----------------------------|------------------2---------|

-|----------------------------|----------------------------|

  ^      ^      ^      ^       ^      ^      ^      ^

Ad blocker interference detected!


Wikia is a free-to-use site that makes money from advertising. We have a modified experience for viewers using ad blockers

Wikia is not accessible if you’ve made further modifications. Remove the custom ad blocker rule(s) and the page will load as expected.