FANDOM


I Saw Her Standing There by The Beatles.



Intro:

G------------------------------------------------

D--------6-----9-----7--6--------6-----9-----7--6

A--7--7-----7-----7--------7--7-----7-----7------

E------------------------------------------------


G------------------------------------------------

D--------6-----9-----7--6--------6-----9-----7--6

A--7--7-----7-----7--------7--7-----7-----7------

E------------------------------------------------


Verse 1:

G------------------------------------------------

D--------6-----9-----7--6--------6-----9-----7--6

A--7--7-----7-----7--------7--7-----7-----7------

E------------------------------------------------


G------------------------------------------------

D--------------------------------6-----9-----7--6

A--0--0--4--0--7--0--5--4--7--7-----7-----7------

E------------------------------------------------


G------------------------------------------------

D--------6-----9-----7--6--------6-----9-----7--6

A--7--7-----7-----7--------7--7-----7-----7------

E------------------------------------------------


G------------------------------------------------

D------------------------------------------------

A--------6-----9-----7--6--------6-----9-----7--6

E--7--7-----7-----7--------7--7-----7-----7------


Chorus 1:

G-----------------------------------------5--5--5

D-----------------6--6--6--6--7--7--7--7---------

A--7--7--7--7--7---------------------------------

E------------------------------------------------


G------------------------------------------------

D--------6-----9-----7--6------------------------

A--7--7-----7-----7--------------6-----9-----7--6

E--------------------------7--7-----7-----7------


G------------------------------------------------

D--------6-----9-----7--6--------6-----9-----7--6

A--7--7-----7-----7--------7--7-----7-----7------

E------------------------------------------------


Verse 2:  Repeat Verse One


Chorus 2: 

G-----------------------------------------5--5--5

D-----------------6--6--6--6--7--7--7--7---------

A--7--7--7--7--7---------------------------------

E------------------------------------------------


G------------------------------------------------

D--------6-----9-----7--6------------------------

A--7--7-----7-----7--------------6-----9-----7--6

E--------------------------7--7-----7-----7------


G------------------------------------------------

D--------6-----9-----7--6------------------------

A--7--7-----7-----7---------7-----5-----4-----2--

E------------------------------------------------


Bridge 1:

G------------------------------------------------

D------------------------------------------------

A--0--0--4--0--7--0--5--4--0--0--4--0--7--0--5--4

E------------------------------------------------


G------------------------------------------------

D------------------------------------------------

A--0--0--4--0--7--0--5--4--0--0--4--0--7--0--5--4

E------------------------------------------------


G------------------------------------------------

D------------------------------------------------

A--0--0--4--0--7--0--5--4--0--0--4--0--7--0--5--4

E------------------------------------------------


G------------------------------------------------

D------------------------------------------------

A--------6-----9-----7--6--------6-----9-----7--6

E--7--7-----7-----7--------7--7-----7-----7------


G------------------------------------------------

D------------------------------------------------

A--0--0--4--0--7--0--5--4--0--0--4--0--7--0--5--4

E------------------------------------------------


Verse 3: Repeat Verse One


Chorus 3: 

G-----------------------------------------5--5--5

D-----------------6--6--6--6--7--7--7--7---------

A--7--7--7--7--7---------------------------------

E------------------------------------------------


G------------------------------------------------

D--------6-----9-----7--6------------------------

A--7--7-----7-----7--------------6-----9-----7--6

E--------------------------7--7-----7-----7------


G------------------------------------------------

D--------6-----9-----7--6----9-9---9-9---9-9---9-

A--7--7-----7-----7------------------------------

E------------------------------------------------



Guitar Solo Bit:

G------------------------------------------------

D--------6-----9-----7--6--------6-----9-----7--6

A--7--7-----7-----7--------7--7-----7-----7------

E------------------------------------------------


G------------------------------------------------

D--------6-----9-----7--6--------6-----9-----7--6

A--7--7-----7-----7--------7--7-----7-----7------

E------------------------------------------------


G------------------------------------------------

D--------6-----9-----7--6--------6-----9---------

A--7--7-----7-----7--------7--7-----7-----7--7--6

E------------------------------------------------


G------------------------------------------------

D------------------------------------------------

A--------6-----9-----7--6--------6-----9---------

E--7--7-----7-----7--------7--7-----7-----7--7--6


G------------------------------------------------

D--------------------------------------6--6--9---

A--7--7--7--7--7--7--7--7--7--7--7--7------------

E------------------------------------------------


G------------------------------------------------

D--7--7--7--7--7--7--7--7--7--7--7--7--7--7--7--9

A------------------------------------------------

E------------------------------------------------


G------------------------------------------------

D--------6-----9-----7--6--------------7--7--6---

A--7--7-----7-----7--------7-----6--9-----------9

E-----------------------------7------------------


G------------------------------------------------

D--------6-----9-----7--6------------------------

A--7--7-----7-----7---------7-----5-----4-----2--

E------------------------------------------------


Bridge:  Repeat Bridge 1


Verse 4:  Repeat Verse 1


Chorus 4: Repeat Chorus 1


Ending:

G------------------------------------------------

D--------6-----9-----7--6------------------------

A--7--7-----7-----7--------------6-----9-----7--6

E--------------------------7--7-----7-----7------


G------------------------------------------------

D--------6-----9-----7--6--------6-----9-----7--6

A--7--7-----7-----7--------7--7-----7-----7------

E------------------------------------------------


G------------------------------------------------

D--------6-----9-----7--6------------------------

A--7--7-----7-----7--------------6-----9-----7--6

E--------------------------7--7-----7-----7------


G-----------------------------------9---

D--7--7--7--7--7--7--7--7-----6--9------

A--------------------------7-----------7

E---------------------------------------

Ad blocker interference detected!


Wikia is a free-to-use site that makes money from advertising. We have a modified experience for viewers using ad blockers

Wikia is not accessible if you’ve made further modifications. Remove the custom ad blocker rule(s) and the page will load as expected.