FANDOM


I Saw Her Standing There by The Beatles.


chords 

E7     A7     B7     A     C      E     

0      3      5      0     0      0

3      2      4      2     1      0

1      2      4      2     0      1

0      2      4      2     2      2

2      0      2      0     3      2

0      #      #      #     #      0


E7

-4--4-4-

-3--3-3-

-4--4-4-

-2--2-2-

--------

--------


riff 1            riff 2          riff 3

E7                 A7              B7

----------------- --------------- ----------------

----------------- --------------- ----------------

----------------- ---------2----- ----------------

---------2-2----- ---------2----- -4-4-6--4-4-6-4-

---------2-2----- -0-0-4-0---5-4- -2-2-2--2-2-2-2-

-0-0-4-0-----5-4- --------------- ----------------


verses

   riff 1                                riff 2          riff 1

           E7                                A7              E7

(1)well she was just seventeen        you know      what i mean

(2)well she looked            at me    and i        i could see

(3)well we danced through the night and we held each other tight

                                             riff 3

                                             B7

and the way she looked was way beyond compare

that before too long id fall in love with her

and before to long  i   fell in love with  her


chorus

   E                E7            A          C

so how could i dance     with another        woo

   she wouldnt dance     with another        woo 


       E/B   E7/B    B7            E7

when i saw   her     standing there


riff 4    

A7              

-----------------

-----------------

-----------------

---------2-2-----

-0-0-3-4-----3-4-

-----------------


bridge

        Riff 4             

        A7

well my heart went boom when i crossed that room


                           B7                    A7

and i held her hand in mi neen                  een

                           ---------------------

                           ---------------------

                           ---2---------2-------

                           -------2-2s4---4---2-

                           -2---4-----------4---

                           ---------------------

solo

E7

---------------------------------------------------------------

-----------------------------------3-------------------3-------

-2b3-2-0h2p0-------------0-2---2s4---2-0---------0-2s4---4s2-0-

-------------2-2-0h2-0h2-----------------2---0h2---------------

-------------------------------------------2-------------------

---------------------------------------------------------------


                B7                 E7

-3-3-3---------------------------------------------------------

-3-3-3------------------------------------8-10b12-10b12-10-8---

--------4s2-0--------------2--------0-7-9--------------------9-

------------------0--2-2s4---4-0-------------------------------

-------------2--2----------------2-----------------------------

---------------------------------------------------------------


A7                         E7             B7           E7

-10----10-------10---------------10----------------------------

----10----10h12----10-10h12---12----10---------3---------------

---------------------------------------12--2s4---4s2-0---------

-------------------------------------------------------0h2-0h2-

---------------------------------------------------------------

---------------------------------------------------------------


      B7

-------------------

-------------------

-2-0---------0---0-

---------0h2---2---

-----0h2-----------

-------------------

Ad blocker interference detected!


Wikia is a free-to-use site that makes money from advertising. We have a modified experience for viewers using ad blockers

Wikia is not accessible if you’ve made further modifications. Remove the custom ad blocker rule(s) and the page will load as expected.