FANDOM


Love Me Do by The Beatles.



Intro

G---------|  |-----|

D-5-----5-|x3|-5---|x2

A---5-3---|  |---5-|

E---------|  |-----|


Verse/Chorus #1

G---------|  |-------------|  |---------|  |-------------|

D-5-----5-|x3|---5---5-----|x1|-5-----5-|x5|---5---5-----|x1

A---5-3---|  |-3---3---3---|  |---5-3---|  |-3---3---3---|

E---------|  |-------------|  |---------|  |-------------|


G------------------|

D-5-----5-5---5542-|

A---5-3-----5------|

E------------------|


Bridge #1

G---------|---------|---------|----------|

D---7---7-|---5-5---|---7---7-|---5--5-5-|

A-5---5---|-3-----5-|-5---5---|-3---3-3--|

E---------|---------|---------|----------|


Verse/Chorus #2

G---------|  |-------------|  |------------------|

D-5-----5-|x3|---5---5-----|x1|-5-----5-5---5542-|

A---5-3---|  |-3---3---3---|  |---5-3-----5------|

E---------|  |-------------|  |------------------|


Bridge #2

G---------|---------|---------|---------|---------|---------|

D---7---7-|---5-5---|---7---7-|---5-5---|-5---5---|-5---5---|

A-5---5---|-3-----5-|-5---5---|-3-----5-|---5---5-|---5-----|

E---------|---------|---------|---------|---------|---------|


Verse/Chorus/End #3

G---------|  |-------------|  |---------|

D-5-----5-|x3|---5---5-----|x1|-5-----5-|x4

A---5-3---|  |-3---3---3---|  |---5-3---|

E---------|  |-------------|  |---------|

Ad blocker interference detected!


Wikia is a free-to-use site that makes money from advertising. We have a modified experience for viewers using ad blockers

Wikia is not accessible if you’ve made further modifications. Remove the custom ad blocker rule(s) and the page will load as expected.