FANDOM


Misery by The Beatles.



Intro:

G|-----------------------------------|-----------------------------------|

D|-----------------------------------|-----------------------------------|

A|-----------------------------------|-----------------------------------|

E|-----------------------------------|-----------------------------------|

                                 The  world           is  treating  me



G|---------------------------------------|

D|---------------------------------------|

A|10-------------------------------------|

E|---------------------------------------|

  bad,



G|-----------------------------------|------- ------- ------- -------|

D|-----------------------------------|-------------------------------|

A|-----------------------------------|12------12------10------10-----|

E|8----------------------------------|-------------------------------|

  mi          se- ry


Verse:

G|------- ------- ------- -------|------- ------- ------- -------|

D|-------------------------------|-------------------------------|

A|----------------10-------------|8------------------------------|

E|8---------------------------8--|----------------8--------------|

  I'm         the kind        of  guy,                        who



G|------- ------- ------- -------|------- ------- ------- -------|

D|-------------------------------|-------------------------------|

A|----------------10-------------|8------------------------------|

E|8------------------------------|----------------8--------------|

  ne     -    ver used        to  cry                         The



G|------- ------- ------- -------|------- ------- ------- -------|

D|-------------------------------|-------------------------------|

A|8-----------8------------------|10----------10-----------------|

E|----------------8--------------|----------------10-------------|

  world       is  treating   me   bad,



G|------- ------- ------- -------|------- ------- ------- -------|

D|-------------------------------|-------------------------------|

A|------------7---10-------------|----------------7--------------|

E|8---------------------------8--|5-----------8-----------8------|

  mi     -    se- ry                                          I've


Verse:

G|------- ------- ------- -------|------- ------- ------- -------|

D|-------------------------------|-------------------------------|

A|----------------10-------------|8------------------------------|

E|8---------------------------8--|----------------8--------------|

  lost        her now,        for sure,                       I



G|------- ------- ------- -------|------- ------- ------- -------|

D|-------------------------------|-------------------------------|

A|----------------10-------------|8------------------------------|

E|8-----------8---------------8--|----------------8--------------|

  won't       see her         no  more                        It's



G|------- ------- ------- -------|------- ------- ------- -------|

D|-------------------------------|-------------------------------|

A|8-----------8---------------8--|10----------10-----------------|

E|----------------8--------------|----------------10-------------|

  gon    -    na  be          a   drag,



G|------- ------- ------- -------|------- ------- ------- -------|

D|-------------------------------|-------------------------------|

A|----------------10-------------|----------------10-------------|

E|8---------------------------7--|8------------------------------|

  mi     -    se- ry


Bridge:

G|------- ------- ------- -------|------- ------- ------- -------|

D|7------------------------------|7------------------------------|

A|----------------7--------------|----------------7--------------|

E|-------------------------------|-------------------------------|

  I           re- mem    -    ber all         the li  -   ttle



G|------- ------- ------- -------|------- ------- ------- -------|

D|-------------------------------|-------------------------------|

A|----------------10-------------|----------------10-------------|

E|8------------------------------|8------------------------------|

  things      we've

                  done


G|------- ------- ------- -------|------- ------- ------- -------|

D|7------------------------------|7------------------------------|

A|----------------7--------------|----------------7--------------|

E|-------------------------------|-------------------------------|

  Can't       she see         she'll              be          the

                                  al     -    ways


G|------- ------- ------- -------|------- ------- ------- -------|

D|-------------------------------|-------------------------------|

A|10-----------------------------|10----------10-----------------|

E|----------------10-------------|----------------10-------------|

  on     -    ly  one,            on     -    ly  one?


Verse:

G|------- ------- ------- -------|------- ------- ------- -------|

D|-------------------------------|-------------------------------|

A|----------------10-------------|8------------------------------|

E|8------------------------------|----------------8--------------|

  Send        her back        to  me,                         Cause



G|------- ------- ------- -------|------- ------- ------- -------|

D|-------------------------------|-------------------------------|

A|----------------10-------------|8---------------------------7--|

E|8------------------------------|----------------8--------------|

  eve    -    ry  one         can see:                        With-



G|------- ------- ------- -------|------- ------- ------- -------|

D|-------------------------------|-------------------------------|

A|8------------------------------|10-----------------------------|

E|----------------8--------------|----------------10-------------|

  out         her I          will be                      in



G|------- ------- ------- -------|------- ------- ------- -------|

D|-------------------------------|-------------------------------|

A|----------------10-------------|------------7---10-------------|

E|8------------------------------|8------------------------------|

  mi     -    se- ry


Bridge:

G|------- ------- ------- -------|------- ------- ------- -------|

D|7------------------------------|7------------------------------|

A|----------------7--------------|----------------7--------------|

E|-------------------------------|-------------------------------|

  I           re- mem    -    ber all         the li  -   ttle



G|------- ------- ------- -------|------- ------- ------- -------|

D|-------------------------------|-------------------------------|

A|------------7---10-------------|----------------10-------------|

E|8------------------------------|8------------------------------|

  things      we've

                  done


G|------- ------- ------- -------|------- ------- ------- -------|

D|7------------------------------|7------------------------------|

A|----------------7--------------|----------------7--------------|

E|-------------------------------|-------------------------------|

  She'll      re  mem   -    ber, and         she'll          her

                                                  miss


G|------- ------- ------- -------|------- ------- ------- -------|

D|-------------------------------|-------------------------------|

A|10-----------------------------|10------8-------7--------------|

E|----------------10-------------|------------------------10-----|

  on     -    ly  one,            lone    -   ly  one


Verse:

G|------- ------- ------- -------|------- ------- ------- -------|

D|-------------------------------|-------------------------------|

A|----------------10-------------|8-----------8------------------|

E|8------------------------------|----------------8--------------|

  Send        her back        to  me,                         Cause



G|------- ------- ------- -------|------- ------- ------- -------|

D|-------------------------------|-------------------------------|

A|----------------10-------------|8-----------8------------------|

E|8---------------------------8--|----------------8-----------8--|

  eve    -    ry  one         can see:                        With-



G|------- ------- ------- -------|------- ------- ------- -------|

D|-------------------------------|-------------------------------|

A|8-----------8---------------8--|10----------10-----------------|

E|----------------8--------------|----------------10-------------|

  out         her I          will be                      in



G|------- ------- ------- -------|------- ------- ------- -------|

D|-------------------------------|-------------------------------|

A|----------------10-------------|----------------7--------------|

E|8---------------------------8--|5-----------8-----------8------|

  mi     -    se- ry              Oh,         oh,         oh, in


Outro:

G|------- ------- ------- -------|------- ------- ------- -------|

D|-------------------------------|-------------------------------|

A|----------------10-------------|----------------7--------------|

E|8-----------8---------------8--|5-----------8-----------8------|

  mi     -    se- ry              Ooh,                    my...

repeat and fade...

Ad blocker interference detected!


Wikia is a free-to-use site that makes money from advertising. We have a modified experience for viewers using ad blockers

Wikia is not accessible if you’ve made further modifications. Remove the custom ad blocker rule(s) and the page will load as expected.