FANDOM


Please Please Me by The Beatles.



Intro:

         E

-|----------12--11--9--7--9--7--4----12--11--9--7--9--7--4--0------------

-|----------------------------------------------------------0------------

-|-----------9---8--6--4--6--4--1-----9---8--6--4--6--4--1--1------------

-|----------------------------------------------------------2------------

-|----------------------------------------------------------2------------

-|---/7--0---(bass only)------------------------------------0------------



Verse:

  E                                  A  E     G  A  B

-|--0----0-----0--0----0----0-----0--0--0-----3--5--7--------------------

-|--5----4-----2--0----2----0--------2--0-----3--5--7--------------------

-|--------------------------------1--2--1-----4--6--8--------------------

-|--------------------------------------------5--7--9--------------------

-|--------------------------------------------5--7--9--------------------

-|--------------------------------------------3--5--7--------------------

    Last night I said these words to my girl


  E                              A   E

-|--0--0----0---0----0--0----0---0---0-----------------------------------

-|--5--4----2---0----2--0--------2---0-----------------------------------

-|---------------------------1---2---1-----------------------------------

-|---------------------------------------------------2--2----------------

-|---------------------------------------------------------2-------------

-|---------------------------------------------0--0----------------------

    I know you ne - ver e - ven try girl

Ad blocker interference detected!


Wikia is a free-to-use site that makes money from advertising. We have a modified experience for viewers using ad blockers

Wikia is not accessible if you’ve made further modifications. Remove the custom ad blocker rule(s) and the page will load as expected.