FANDOM


Twist And Shout by The Beatles.



G--------------------------------

D--------------------------------

A-2-3-4-55----------------------- (Repeat through-out the song)

E----------3-3-5-----------------


"Ahhhhhhhh....."


G--------------------------------

D--------------------------------

A--------------------------------

E-5-5-5-5-5-5-5-5-5-5-5-5-5-5-5-5


Solo:


G--------------------------------

D-------5-4----------------------

A---4-5--------5-4--------------- (X4)

E-5----------5-------------------


"Shake It Shake It..."


G--------------------------------

D--------------------------------

A---------------55--------------- (X3)

E-5-5-5-5-5-5-5----3-3-5---------


Outro:


G--------------------------------

D--------------------------------

A-----------------5--------------

E-5-6-7-8-9-10-11----------------

Ad blocker interference detected!


Wikia is a free-to-use site that makes money from advertising. We have a modified experience for viewers using ad blockers

Wikia is not accessible if you’ve made further modifications. Remove the custom ad blocker rule(s) and the page will load as expected.