FANDOM


Twist And Shout by The Beatles.


    INTRO


  e|------- ------- ------- -------|------- ------- ------- -------|

  B|-------------------------------|-------------------------------|

  G|-------------------------------|-------------------------------|

  D|-------------------------------|-------------------------------|

  A|-------------------------------|-------------------------------|

  E|-------------------------------|--------------------5---7---9--|




    D               G           A       A7

  e|2------ 2------ 3---3-- ----5--|----5-- 5---5-- 5---5-- 5---5--|

  B|3-------3-------3---3-------5--|----8---8---8---8---8---8---8--|

  G|2-------2-------4---4-------6--|----6---6---6---6---6---6---6--|

  D|4-------4-------x---x-------x--|----x---x---x---x---x---x---x--|

  A|----------------5---5-------7--|----7---7---7---7---7---7---7--|

  E|----------------3---3-------5--|----5---5---5---5---5---5---5--|

                   (T) ....

  e|------- ------- ------- -------|------- ------- ------- -------|

  B|-------------------------------|-------------------------------|

  G|-------------------------------|-------------------------------|

  D|--------7----------------------|-------------------------------|

  A|5-------5-------5---5-------7--|----7---7---7---7---7----------|

  E|----------------3---3-------5--|----5---5---5---5---5---7---9--|




    D               G           A       A7

  e|2------ 2------ 3---3-- ----5--|----5-- 5---5-- 5---5-- 5------|

  B|3-------3-------3---3-------5--|----8---8---8---8---8---8------|

  G|2-------2-------4---4-------6--|----6---6---6---6---6---6------|

  D|4-------4-------x---x-------x--|----x---x---x---x---x---x------|

  A|----------------5---5-------7--|----7---7---7---7---7---7------|

  E|----------------3---3-------5--|----5---5---5---5---5---5------|

                                                Well,   it  up, baby, 

                                                    shake 

  e|------- ------- ------- -------|------- ------- ------- -------|

  B|-------------------------------|-------------------------------|

  G|-------------------------------|-------------------------------|

  D|--------7----------------------|-------------------------------|

  A|5-------5-------5---5-------7--|----7---7---7-------7----------|

  E|----------------3---3-------5--|----5---5---5-------5---7---9--|



    00:08

    D               G                   A7

  e|2------ 2------ 3------ 3---3--|----5-- 5---5-- ----5-- 5------|

  B|3-------3-------3-------3---3--|----8---8---8-------8---8------|

  G|2-------2-------4-------4---4--|----6---6---6-------6---6------|

  D|4-------4-------x-------x---x--|----x---x---x-------x---x------|

  A|----------------5-------5---5--|----7---7---7-------7---7------|

  E|----------------3-------3---3--|----5---5---5-------5---5------|

            now,                                    Twist   and

                   (Shake   up, baby)

                        it


  e|------- ------- ------- -------|------- ------- ------- -------|

  B|-------------------------------|-------------------------------|

  G|-------------------------------|-------------------------------|

  D|--------7----------------------|-------------------------------|

  A|5-------5-------5-------5---5--|----7---7---7---7---7----------|

  E|----------------3-------3---3--|----5---5---5---5---5---7---9--|






  e|2------ 2------ 3------ 3---3--|----5-- 5---5-- 5---5-- 5------|

  B|3-------3-------3-------3---3--|----8---8---8---8---8---8------|

  G|2-------2-------4-------4---4--|----6---6---6---6---6---6------|

  D|4-------4-------x-------x---x--|----x---x---x---x---x---x------|

  A|----------------5-------5---5--|----7---7---7---7---7---7------|

  E|----------------3-------3---3--|----5---5---5---5---5---5------|

    shout                               C'mon  c'mon,  c'mon,  c'mon, 

                   (twist       shout)

                        and


  e|------- ------- ------- -------|------- ------- ------- -------|

  B|-------------------------------|-------------------------------|

  G|-------------------------------|-------------------------------|

  D|--------7----------------------|-------------------------------|

  A|5-------5-------5-------5---5--|----7-------7---7---7----------|

  E|----------------3-------3---3--|----5-------5---5---5---7---9--|





  e|2------ 2------ 3---3-- 3------|5---5-- ----5-- 5---5-- 5------|

  B|3-------3-------3---3---3------|8---8-------8---8---8---8------|

  G|2-------2-------4---4---4------|6---6-------6---6---6---6------|

  D|4-------4-------x---x---x------|x---x-------x---x---x---x------|

  A|----------------5---5---5------|7---7-------7---7---7---7------|

  E|----------------3---3---3------|5---5-------5---5---5---5------|

    baby,       now,                    Come    and work    on  out. 

                   (Come on     baby)       on          it

  e|------- ------- ------- -------|------- ------- ------- -------|

  B|-------------------------------|-------------------------------|

  G|-------------------------------|-------------------------------|

  D|--------7----------------------|-------------------------------|

  A|5-------5-------5-------5---5--|----7-------7-------7----------|

  E|----------------3-------3---3--|----5-------5-------5---7---9--|





  e|2------ 2------ 3---3-- 3------|----5-- 5---5-- 5---5-- 5------|

  B|3-------3-------3---3---3------|----8---8---8---8---8---8------|

  G|2-------2-------4---4---4------|----6---6---6---6---6---6------|

  D|4-------4-------x---x---x------|----x---x---x---x---x---x------|

  A|----------------5---5---5------|----7---7---7---7---7---7------|

  E|----------------3---3---3------|----5---5---5---5---5---5------|

                                        Well,       work    on  out,

                                                        it  

                   (Work    on  out     Woooooooooooooooooooohhhh)

                        it

  e|------- ------- ------- -------|------- ------- ------- -------|

  B|-------------------------------|-------------------------------|

  G|-------------------------------|-------------------------------|

  D|--------7----------------------|-------------------------------|

  A|5-------5-------5-------5---5--|----7-------7-------7----------|

  E|----------------3-------3---3--|----5-------5-------5---7---9--|





  e|2---2-- 2------ 3---3-- 3---5--|----5-- 5---5-- 5---5-- 5------|

  B|3---3---3-------3---3---3---5--|----8---8---8---8---8---8------|

  G|2---2---2-------4---4---4---6--|----6---6---6---6---6---6------|

  D|4---4---4-------x---x---x---x--|----x---x---x---x---x---x------|

  A|----------------5---5---5---7--|----7---7---7---7---7---7------|

  E|----------------3---3---3---5--|----5---5---5---5---5---5------|

                honey                   You know    look    so

                   (Work    on  out)            you

                        it

  e|------- ------- ------- -------|------- ------- ------- -------|

  B|-------------------------------|-------------------------------|

  G|-------------------------------|-------------------------------|

  D|--------7----------------------|-------------------------------|

  A|5---5---5-------5-------5---5--|----7-------7---7---7----------|

  E|----------------3-------3---3--|----5-------5---5---5---7---9--|





  e|2---2-- 2------ 3---3-- 3------|5---5-- 5---5-- 5---5-- 5------|

  B|3---3---3-------3---3---3------|5---8---8---8---8---8---8------|

  G|2---2---2-------4---4---4------|6---6---6---6---6---6---6------|

  D|4---4---4-------x---x---x------|x---x---x---x---x---x---x------|

  A|----------------5---5---5------|7---7---7---7---7---7---7------|

  E|----------------3---3---3------|5---5---5---5---5---5---5------|

    good                                You know    got     me

                   (Look        good)           you

                        so

  e|------- ------- ------- -------|------- ------- ------- -------|

  B|-------------------------------|-------------------------------|

  G|-------------------------------|-------------------------------|

  D|--------7----------------------|-------------------------------|

  A|5---5---5-------5-------5---5--|----7---7---7---7---7----------|

  E|----------------3-------3---3--|----5---5---5---5---5---7---9--|





  e|2------ 2------ 3---3-- ----5--|5---5-- 5---5-- 5---5-- 5------|

  B|3-------3-------3---3-------5--|5---8---8---8---8---8---8------|

  G|2-------2-------4---4-------6--|6---6---6---6---6---6---6------|

  D|4-------4-------x---x-------x--|x---x---x---x---x---x---x------|

  A|----------------5---5-------7--|7---7---7---7---7---7---7------|

  E|----------------3---3-------5--|5---5---5---5---5---5---5------|

    goin',      now,                    Just    I   knew    you would. 

                   (Got me      goin')      like

  e|------- ------- ------- -------|------- ------- ------- -------|

  B|-------------------------------|-------------------------------|

  G|-------------------------------|-------------------------------|

  D|--------7----------------------|-------------------------------|

  A|5-------5-------5-------5---5--|----7---7---7-------7----------|

  E|----------------3-------3---3--|----5---5---5-------5---7---9--|



                                        x x x x x x x x x x x   x


  e|2------ 2------ 3---3-- ----5--|5---5-- 5---5-- 5---5-- 5------|

  B|3-------3-------3---3-------5--|5---8---8---8---8---8---8------|

  G|2-------2-------4---4-------6--|6---6---6---6---6---6---6------|

  D|4-------4-------x---x-------x--|x---x---x---x---x---x---x------|

  A|----------------5---5-------7--|7---7---7---7---7---7---7------|

  E|----------------3---3-------5--|5---5---5---5---5---5---5------|

                                                Well,   it  up, baby,

                                                    shake            

           (Like    knew        would   Woooooooooooooooooooooohhhh)

                I       you

  e|------- ------- ------- -------|------- ------- ------- -------|

  B|-------------------------------|-------------------------------|

  G|-------------------------------|-------------------------------|

  D|--------7----------------------|-------------------------------|

  A|5-------5-------5-------5---5--|----7---7---7-------7----------|

  E|----------------3-------3---3--|----5---5---5-------5---7---9--|




    00:38

         now, 

   (Shake it up, baby)

    Twist and shout. 

   (Twist and shout)

    C'mon, c'mon, c'mon, c'mon, baby, now, 

   (Come on baby)

    Come on and work it on out. 

   (Work it on out, Woooooooooooooohhh)



                                   00:53

    You know you twist little girl, 

   (Twist, little girl)

    You know you twist so fine. 

   (Twist so fine)

    Come on and twist a little closer, now, 

   (Twist a little closer)

    And let me know that you're mine. 

   (Let me know you're mine, Wooooooooooooooooohhh)




    INSTRUMENTAL BREAK

    01:08


  e|------- ------- ------- -------|------- ------- ------- -------|

  B|--------------------3-------2--|-------------------------------|

  G|----------------4--------------|------------2---4-------2------|

  D|4-----------4------------------|-------------------------------|

  A|-------------------------------|-------------------------------|

  E|-------------------------------|-------------------------------|


  e|------- ------- ------- -------|------- ------- ------- -------|

  B|-------------------------------|-------------------------------|

  G|--------------------4-------2--|----------------0--------------|

  D|----------------5--------------|------------2-----------4------|

  A|5-----------5------------------|-------------------------------|

  E|-------------------------------|-------------------------------|




  e|------- ------- ------- -------|------- ------- ------- -------|

  B|--------------------3-------2--|-------------------------------|

  G|----------------4--------------|------------2---4-------2------|

  D|4-----------4------------------|-------------------------------|

  A|-------------------------------|-------------------------------|

  E|-------------------------------|-------------------------------|


  e|------- ------- ------- -------|------- ------- ------- -------|

  B|-------------------------------|-------------------------------|

  G|--------------------4-------2--|----------------0--------------|

  D|----------------5--------------|------------2-----------4------|

  A|5-----------5------------------|-------------------------------|

  E|-------------------------------|-------------------------------|




  e|------- ------- ------- ----2--|------- ------- ------- -------|

  B|--------------------3-------2--|-------------------------------|

  G|----------------4--------------|------------2---4-------2------|

  D|4-----------4------------------|-------------------------------|

  A|-------------------------------|-------------------------------|

  E|-------------------------------|-------------------------------|


  e|------- ------- ------- -------|------- ------- ------- -------|

  B|-------------------------------|-------------------------------|

  G|--------------------4-------2--|----------------0--------------|

  D|----------------5--------------|------------2-----------4------|

  A|5-----------5------------------|-------------------------------|

  E|-------------------------------|-------------------------------|




  e|------- ------- ------- -------|------- ------- ------- -------|

  B|--------------------3-------2--|-------------------------------|

  G|----------------4--------------|------------2---4-------2------|

  D|4-----------4------------------|-------------------------------|

  A|-------------------------------|-------------------------------|

  E|-------------------------------|-------------------------------|


  e|------- ------- ------- -------|------- ------- ------- -------|

  B|-------------------------------|-------------------------------|

  G|--------------------4-------2--|----------------0--------------|

  D|----------------5--------------|------------2-----------4------|

  A|5-----------5------------------|-------------------------------|

  E|-------------------------------|-------------------------------|



    01:24


  e|5------ 5---5-- ----5-- 5------|5------ ----5-- ----5-- 5---5--|

  B|5-------5---5-------5---5------|5-----------5-------5---5---5--|

  G|6-------6---6-------6---6------|6-----------6-------6---6---6--|

  D|7-------7---7-------7---7------|7-----------7-------7---7---7--|

  A|7-------7---7-------7---7------|7-----------7-------7---7---7--|

  E|5-------5---5-------5---5------|5-----------5-------5---5---5--|

    Aaaaaaaaaaaaaaaaaaaaaahhhh ....

                                    Aaaaaaaaaaaaaaaaaaaaaaahhh ....

  e|------- ------- ------- -------|------- ------- ------- -------|

  B|-------------------------------|-------------------------------|

  G|-------------------------------|-------------------------------|

  D|7-------7---7-------7---7---7--|7-----------7-------7---7---7--|

  A|7-------7---7-------7---7---7--|7-----------7-------7---7---7--|

  E|5-------5---5-------5---5---5--|5-----------5-------5---5---5--|





  e|5------ 5---5-- ----5-- 5---5--|5------ ----5-- ------- 5---5--|

  B|5-------5---5-------5---5---5--|5-----------5-----------5---5--|

  G|6-------6---6-------6---6---6--|6-----------6-----------6---6--|

  D|7-------7---7-------7---7---7--|7-----------7-----------7---7--|

  A|7-------7---7-------7---7---7--|7-----------7-----------7---7--|

  E|5-------5---5-------5---5---5--|5-----------5-----------5---5--|

    ....

  e|------- ------- ------- -------|------- ------- ------- -------|

  B|-------------------------------|-------------------------------|

  G|-------------------------------|-------------------------------|

  D|7-----------7-------7---7---7--|7-------7---7-------7---7---7--|

  A|7-----------7-------7---7---7--|7-------7---7-------7---7---7--|

  E|5-----------5-------5---5---5--|5-------5---5-------5---5---5--|





  e|5---5-- ----5-- ----5-- 5------|5---5-- 5---5-- 5---5-- 5---5--|

  B|5---5-------5-------5---5------|5---5---5---5---5---5---5---5--|

  G|6---6-------6-------6---6------|6---6---6---6---6---6---6---6--|

  D|7---7-------7-------7---7------|7---7---7---7---7---7---7---7--|

  A|7---7-------7-------7---7------|7---7---7---7---7---7---7---7--|

  E|5---5-------5-------5---5------|5---5---5---5---5---5---5---5--|

     ....                       Well,                   it  up, baby, 

     Wow!                                           shake      

  e|------- ------- ------- -------|------- ------- ------- -------|

  B|-------------------------------|-------------------------------|

  G|-------------------------------|-------------------------------|

  D|7---7---7---7---7---7---7---7--|7---7---7---7---7---7---7---7--|

  A|7---7---7---7---7---7---7---7--|7---7---7---7---7---7---7---7--|

  E|5---5---5---5---5---5---5---5--|5---5---5---5---5---5---5---5--|




    01:36

         now, 

   (Shake it up, baby)

    Twist and shout. 

   (Twist and shout)

    C'mon, c'mon, c'mon, c'mon, baby, now, 

   (Come on baby)

    Come on and work it on out. 

   (Work it on out, Wooooooooooooooohhh)


                                   01:51

    You know you twist little girl, 

   (Twist, little girl)

    You know you twist so fine. 

   (Twist so fine)

    Come on and twist a little closer, now, 

   (Twist a little closer)

    And let me know that you're mine. 

   (Let me know you're mine, Wooooooooooooohhh)


                                        

    Well, shake it, shake it, shake it, 


    02:07

    baby, now. 

   (shake it up baby)

    Well, shake it, shake it, shake it, 

    baby, now. 

   (shake it up baby)

    Well, shake it, shake it, shake it, 

    baby, now. 

   (shake it up baby)



    02:18

 

  e|5---5-- 5---5-- ----5-- 5------|5------ 5---5-- ----5-- 5------|

  B|5---5---5---5-------5---5------|5-------5---5-------5---5------|

  G|6---6---6---6-------6---6------|6-------6---6-------6---6------|

  D|7---7---7---7-------7---7------|7-------7---7-------7---7------|

  A|7---7---7---7-------7---7------|7-------7---7-------7---7------|

  E|5---5---5---5-------5---5------|5-------5---5-------5---5------|

    Aaaaaaaaaaaaaaaaaaaaaahhhh ....

                                    Aaaaaaaaaaaaaaaaaaaaaaahhh ....

  e|------- ------- ------- -------|------- ------- ------- -------|

  B|-------------------------------|-------------------------------|

  G|-------------------------------|-------------------------------|

  D|7-------7---7-------7---7---7--|7-------7---7-------7---7---7--|

  A|7-------7---7-------7---7---7--|7-------7---7-------7---7---7--|

  E|5-------5---5-------5---5---5--|5-------5---5-------5---5---5--|





  e|5------ 5---5-- ----5-- 5---5--|5------ ------- ------- -------|

  B|5-------5---5-------5---5---5--|5------------------------------|

  G|6-------6---6-------6---6---6--|6------------------------------|

  D|7-------7---7-------7---7---7--|7-----7----8----9----10----11--|

  A|7-------7---7-------7---7---7--|7-----7----8----9----10----11--|

  E|5-------5---5-------5---5---5--|5-----5----6----7-----8-----9--|

    ....

  e|------- ------- ------- -------|------- ------- ------- -------|

  B|-------------------------------|-------------------------------|

  G|-------------------------------|-------------------------------|

  D|7-------7---7-------7---7---7--|7-----7----8----9----10----11--|

  A|7-------7---7-------7---7---7--|7-----7----8----9----10----11--|

  E|5-------5---5-------5---5---5--|5-----5----6----7-----8-----9--|



                   (.

        xxx   xxx

  e|------- ------- 5------ -------|------- ------- ------- -------|

  B|----------------5--------------|-------------------------------|

  G|----------------5--------------|-------------------------------|

  D|12--------------4--------------|-------------------------------|

  A|12--------------5--------------|-------------------------------|

  E|10-----------------------------|-------------------------------|

                            Hey!

  e|------- ------- 5------ -------|------- ------- ------- -------|

  B|----------------5--------------|-------------------------------|

  G|----------------5--------------|-------------------------------|

  D|12--------------4--------------|-------------------------------|

  A|12--------------5--------------|-------------------------------|

  E|10-----------------------------|-------------------------------|